  0
SECTION
  2
HEADER
  9
$ACADVER
  1
AC1015
  9
$ACADMAINTVER
 70
     6
  9
$DWGCODEPAGE
  3
ANSI_1254
  9
$INSBASE
 10
0.0
 20
0.0
 30
0.0
  9
$EXTMIN
 10
0.0
 20
0.0
 30
0.0
  9
$EXTMAX
 10
279.4
 20
215.9
 30
0.0
  9
$LIMMIN
 10
0.0
 20
0.0
  9
$LIMMAX
 10
279.4
 20
215.9
  9
$ORTHOMODE
 70
     0
  9
$REGENMODE
 70
     1
  9
$FILLMODE
 70
     1
  9
$QTEXTMODE
 70
     0
  9
$MIRRTEXT
 70
     1
  9
$LTSCALE
 40
1.0
  9
$ATTMODE
 70
     1
  9
$TEXTSIZE
 40
3.5
  9
$TRACEWID
 40
1.0
  9
$TEXTSTYLE
  7
Standard
  9
$CLAYER
  8
0
  9
$CELTYPE
  6
ByLayer
  9
$CECOLOR
 62
   256
  9
$CELTSCALE
 40
1.0
  9
$DISPSILH
 70
     0
  9
$DIMSCALE
 40
1.0
  9
$DIMASZ
 40
3.5
  9
$DIMEXO
 40
1.0
  9
$DIMDLI
 40
3.75
  9
$DIMRND
 40
0.0
  9
$DIMDLE
 40
0.0
  9
$DIMEXE
 40
1.0
  9
$DIMTP
 40
0.0
  9
$DIMTM
 40
0.0
  9
$DIMTXT
 40
3.5
  9
$DIMCEN
 40
2.5
  9
$DIMTSZ
 40
0.0
  9
$DIMTOL
 70
     0
  9
$DIMLIM
 70
     0
  9
$DIMTIH
 70
     1
  9
$DIMTOH
 70
     1
  9
$DIMSE1
 70
     0
  9
$DIMSE2
 70
     0
  9
$DIMTAD
 70
     1
  9
$DIMZIN
 70
     0
  9
$DIMBLK
  1

  9
$DIMASO
 70
     1
  9
$DIMSHO
 70
     1
  9
$DIMPOST
  1

  9
$DIMAPOST
  1

  9
$DIMALT
 70
     0
  9
$DIMALTD
 70
     3
  9
$DIMALTF
 40
0.0393700787
  9
$DIMLFAC
 40
1.0
  9
$DIMTOFL
 70
     1
  9
$DIMTVP
 40
0.0
  9
$DIMTIX
 70
     0
  9
$DIMSOXD
 70
     0
  9
$DIMSAH
 70
     0
  9
$DIMBLK1
  1

  9
$DIMBLK2
  1

  9
$DIMSTYLE
  2
ISO-25
  9
$DIMCLRD
 70
     0
  9
$DIMCLRE
 70
     0
  9
$DIMCLRT
 70
     0
  9
$DIMTFAC
 40
1.0
  9
$DIMGAP
 40
1.524
  9
$DIMJUST
 70
     0
  9
$DIMSD1
 70
     0
  9
$DIMSD2
 70
     0
  9
$DIMTOLJ
 70
     0
  9
$DIMTZIN
 70
     0
  9
$DIMALTZ
 70
     0
  9
$DIMALTTZ
 70
     0
  9
$DIMUPT
 70
     0
  9
$DIMDEC
 70
     2
  9
$DIMTDEC
 70
     2
  9
$DIMALTU
 70
     2
  9
$DIMALTTD
 70
     3
  9
$DIMTXSTY
  7
Standard
  9
$DIMAUNIT
 70
     0
  9
$DIMADEC
 70
     2
  9
$DIMALTRND
 40
0.0
  9
$DIMAZIN
 70
     0
  9
$DIMDSEP
 70
    44
  9
$DIMATFIT
 70
     3
  9
$DIMFRAC
 70
     0
  9
$DIMLDRBLK
  1

  9
$DIMLUNIT
 70
     2
  9
$DIMLWD
 70
    -2
  9
$DIMLWE
 70
    -2
  9
$DIMTMOVE
 70
     0
  9
$LUNITS
 70
     2
  9
$LUPREC
 70
     2
  9
$SKETCHINC
 40
1.0
  9
$FILLETRAD
 40
10.0
  9
$AUNITS
 70
     0
  9
$AUPREC
 70
     2
  9
$MENU
  1
.
  9
$ELEVATION
 40
0.0
  9
$PELEVATION
 40
0.0
  9
$THICKNESS
 40
0.0
  9
$LIMCHECK
 70
     0
  9
$CHAMFERA
 40
0.0
  9
$CHAMFERB
 40
0.0
  9
$CHAMFERC
 40
0.0
  9
$CHAMFERD
 40
0.0
  9
$SKPOLY
 70
     0
  9
$TDCREATE
 40
2458985.651404386
  9
$TDUCREATE
 40
2458985.526404386
  9
$TDUPDATE
 40
2458985.651404699
  9
$TDUUPDATE
 40
2458985.526404699
  9
$TDINDWG
 40
0.0000000116
  9
$TDUSRTIMER
 40
0.0000000116
  9
$USRTIMER
 70
     1
  9
$ANGBASE
 50
0.0
  9
$ANGDIR
 70
     0
  9
$PDMODE
 70
     0
  9
$PDSIZE
 40
-1.0
  9
$PLINEWID
 40
0.0
  9
$SPLFRAME
 70
     0
  9
$SPLINETYPE
 70
     6
  9
$SPLINESEGS
 70
     8
  9
$HANDSEED
  5
C0
  9
$SURFTAB1
 70
     6
  9
$SURFTAB2
 70
     6
  9
$SURFTYPE
 70
     6
  9
$SURFU
 70
     6
  9
$SURFV
 70
     6
  9
$UCSBASE
  2

  9
$UCSNAME
  2

  9
$UCSORG
 10
0.0
 20
0.0
 30
0.0
  9
$UCSXDIR
 10
1.0
 20
0.0
 30
0.0
  9
$UCSYDIR
 10
0.0
 20
1.0
 30
0.0
  9
$UCSORTHOREF
  2

  9
$UCSORTHOVIEW
 70
     0
  9
$UCSORGTOP
 10
0.0
 20
0.0
 30
0.0
  9
$UCSORGBOTTOM
 10
0.0
 20
0.0
 30
0.0
  9
$UCSORGLEFT
 10
0.0
 20
0.0
 30
0.0
  9
$UCSORGRIGHT
 10
0.0
 20
0.0
 30
0.0
  9
$UCSORGFRONT
 10
0.0
 20
0.0
 30
0.0
  9
$UCSORGBACK
 10
0.0
 20
0.0
 30
0.0
  9
$PUCSBASE
  2

  9
$PUCSNAME
  2

  9
$PUCSORG
 10
0.0
 20
0.0
 30
0.0
  9
$PUCSXDIR
 10
1.0
 20
0.0
 30
0.0
  9
$PUCSYDIR
 10
0.0
 20
1.0
 30
0.0
  9
$PUCSORTHOREF
  2

  9
$PUCSORTHOVIEW
 70
     0
  9
$PUCSORGTOP
 10
0.0
 20
0.0
 30
0.0
  9
$PUCSORGBOTTOM
 10
0.0
 20
0.0
 30
0.0
  9
$PUCSORGLEFT
 10
0.0
 20
0.0
 30
0.0
  9
$PUCSORGRIGHT
 10
0.0
 20
0.0
 30
0.0
  9
$PUCSORGFRONT
 10
0.0
 20
0.0
 30
0.0
  9
$PUCSORGBACK
 10
0.0
 20
0.0
 30
0.0
  9
$USERI1
 70
     0
  9
$USERI2
 70
     0
  9
$USERI3
 70
     0
  9
$USERI4
 70
     0
  9
$USERI5
 70
     0
  9
$USERR1
 40
0.0
  9
$USERR2
 40
0.0
  9
$USERR3
 40
0.0
  9
$USERR4
 40
0.0
  9
$USERR5
 40
0.0
  9
$WORLDVIEW
 70
     1
  9
$SHADEDGE
 70
     3
  9
$SHADEDIF
 70
    70
  9
$TILEMODE
 70
     1
  9
$MAXACTVP
 70
    64
  9
$PINSBASE
 10
0.0
 20
0.0
 30
0.0
  9
$PLIMCHECK
 70
     0
  9
$PEXTMIN
 10
1.0000000000E+20
 20
1.0000000000E+20
 30
1.0000000000E+20
  9
$PEXTMAX
 10
-1.0000000000E+20
 20
-1.0000000000E+20
 30
-1.0000000000E+20
  9
$PLIMMIN
 10
0.0
 20
0.0
  9
$PLIMMAX
 10
420.0
 20
297.0
  9
$UNITMODE
 70
     0
  9
$VISRETAIN
 70
     1
  9
$PLINEGEN
 70
     0
  9
$PSLTSCALE
 70
     1
  9
$TREEDEPTH
 70
  3020
  9
$CMLSTYLE
  2
Standard
  9
$CMLJUST
 70
     0
  9
$CMLSCALE
 40
20.0
  9
$PROXYGRAPHICS
 70
     1
  9
$MEASUREMENT
 70
     1
  9
$CELWEIGHT
370
    -1
  9
$ENDCAPS
280
     0
  9
$JOINSTYLE
280
     0
  9
$LWDISPLAY
290
     1
  9
$INSUNITS
 70
     4
  9
$HYPERLINKBASE
  1

  9
$STYLESHEET
  1

  9
$XEDIT
290
     1
  9
$CEPSNTYPE
380
     0
  9
$PSTYLEMODE
290
     1
  9
$FINGERPRINTGUID
  2
{94b60186-3912-4b1a-8e2d-e018c8eff4d1}
  9
$VERSIONGUID
  2
{FAEB1C32-E019-11D5-929B-00C0DF256EC4}
  9
$EXTNAMES
290
     1
  9
$PSVPSCALE
 40
0.0
  9
$OLESTARTUP
290
     0
  0
ENDSEC
  0
SECTION
  2
CLASSES
  0
CLASS
  1
ACDBDICTIONARYWDFLT
  2
AcDbDictionaryWithDefault
  3
ObjectDBX Classes
 90
        0
280
     0
281
     0
  0
CLASS
  1
VISUALSTYLE
  2
AcDbVisualStyle
  3
ObjectDBX Classes
 90
     4095
280
     0
281
     0
  0
CLASS
  1
MATERIAL
  2
AcDbMaterial
  3
ObjectDBX Classes
 90
     1153
280
     0
281
     0
  0
CLASS
  1
SCALE
  2
AcDbScale
  3
ObjectDBX Classes
 90
     1153
280
     0
281
     0
  0
CLASS
  1
TABLESTYLE
  2
AcDbTableStyle
  3
ObjectDBX Classes
 90
     4095
280
     0
281
     0
  0
CLASS
  1
MLEADERSTYLE
  2
AcDbMLeaderStyle
  3
ACDB_MLEADERSTYLE_CLASS
 90
     4095
280
     0
281
     0
  0
CLASS
  1
SUN
  2
AcDbSun
  3
SCENEOE
 90
     1153
280
     0
281
     0
  0
CLASS
  1
ACDBPLACEHOLDER
  2
AcDbPlaceHolder
  3
ObjectDBX Classes
 90
        0
280
     0
281
     0
  0
CLASS
  1
LAYOUT
  2
AcDbLayout
  3
ObjectDBX Classes
 90
        0
280
     0
281
     0
  0
ENDSEC
  0
SECTION
  2
TABLES
  0
TABLE
  2
VPORT
  5
8
330
0
100
AcDbSymbolTable
 70
     1
  0
VPORT
  5
29
330
8
100
AcDbSymbolTableRecord
100
AcDbViewportTableRecord
  2
*Active
 70
     0
 10
0.0
 20
0.0
 11
1.0
 21
1.0
 12
139.7
 22
107.95
 13
0.0
 23
0.0
 14
10.0
 24
10.0
 15
10.0
 25
10.0
 16
0.0
 26
0.0
 36
1.0
 17
0.0
 27
0.0
 37
0.0
 40
215.9
 41
1.2941176471
 42
50.0
 43
0.0
 44
0.0
 50
0.0
 51
0.0
 71
     0
 72
  2000
 73
     1
 74
     3
 75
     0
 76
     0
 77
     0
 78
     0
281
     0
 65
     1
110
0.0
120
0.0
130
0.0
111
1.0
121
0.0
131
0.0
112
0.0
122
1.0
132
0.0
 79
     0
146
0.0
  0
ENDTAB
  0
TABLE
  2
LTYPE
  5
5
330
0
100
AcDbSymbolTable
 70
     6
  0
LTYPE
  5
14
330
5
100
AcDbSymbolTableRecord
100
AcDbLinetypeTableRecord
  2
ByBlock
 70
     0
  3

 72
    65
 73
     0
 40
0.0
  0
LTYPE
  5
15
330
5
100
AcDbSymbolTableRecord
100
AcDbLinetypeTableRecord
  2
ByLayer
 70
     0
  3

 72
    65
 73
     0
 40
0.0
  0
LTYPE
  5
16
330
5
100
AcDbSymbolTableRecord
100
AcDbLinetypeTableRecord
  2
Continuous
 70
     0
  3
Solid line
 72
    65
 73
     0
 40
0.0
  0
LTYPE
  5
6E
330
5
100
AcDbSymbolTableRecord
100
AcDbLinetypeTableRecord
  2
HIDDEN
 70
     0
  3
Hidden __ __ __ __ __ __ __ __ __ __ __ __ __ __
 72
    65
 73
     2
 40
1.905
 49
1.27
 74
     0
 49
-0.635
 74
     0
  0
LTYPE
  5
6F
330
5
100
AcDbSymbolTableRecord
100
AcDbLinetypeTableRecord
  2
PHANTOM
 70
     0
  3
Phantom ______  __  __  ______  __  __  ______
 72
    65
 73
     6
 40
12.7
 49
6.35
 74
     0
 49
-1.27
 74
     0
 49
1.27
 74
     0
 49
-1.27
 74
     0
 49
1.27
 74
     0
 49
-1.27
 74
     0
  0
LTYPE
  5
70
330
5
100
AcDbSymbolTableRecord
100
AcDbLinetypeTableRecord
  2
CENTER
 70
     0
  3
Center ____ _ ____ _ ____ _ ____ _ ____ _ ____
 72
    65
 73
     4
 40
10.16
 49
6.35
 74
     0
 49
-1.27
 74
     0
 49
1.27
 74
     0
 49
-1.27
 74
     0
  0
LTYPE
  5
71
330
5
100
AcDbSymbolTableRecord
100
AcDbLinetypeTableRecord
  2
CENTERX2
 70
     0
  3
Center (2x) ________  __  ________  __  _____
 72
    65
 73
     4
 40
20.32
 49
12.7
 74
     0
 49
-2.54
 74
     0
 49
2.54
 74
     0
 49
-2.54
 74
     0
  0
LTYPE
  5
72
330
5
100
AcDbSymbolTableRecord
100
AcDbLinetypeTableRecord
  2
DOT2
 70
     0
  3
Dot (.5x) ........................................
 72
    65
 73
     2
 40
0.635
 49
0.0
 74
     0
 49
-0.635
 74
     0
  0
ENDTAB
  0
TABLE
  2
LAYER
  5
2
330
0
100
AcDbSymbolTable
 70
    17
  0
LAYER
  5
10
330
2
100
AcDbSymbolTableRecord
100
AcDbLayerTableRecord
  2
0
 70
     0
 62
     7
  6
Continuous
370
    -3
390
F
  0
LAYER
  5
73
330
2
100
AcDbSymbolTableRecord
100
AcDbLayerTableRecord
  2
FORMAT
 70
     0
 62
     7
  6
Continuous
370
    -3
390
F
  0
LAYER
  5
74
330
2
100
AcDbSymbolTableRecord
100
AcDbLayerTableRecord
  2
YARDIMCI_GEOMETRI
 70
     0
 62
    -6
  6
Continuous
290
     0
370
    -3
390
F
  0
LAYER
  5
75
330
2
100
AcDbSymbolTableRecord
100
AcDbLayerTableRecord
  2
SAYFA_CERCEVESI
 70
     0
 62
     7
  6
Continuous
370
    25
390
F
  0
LAYER
  5
76
330
2
100
AcDbSymbolTableRecord
100
AcDbLayerTableRecord
  2
ANTET
 70
     0
 62
     7
  6
Continuous
370
    -3
390
F
  0
LAYER
  5
77
330
2
100
AcDbSymbolTableRecord
100
AcDbLayerTableRecord
  2
OLCU
 70
     0
 62
   150
  6
Continuous
370
    -3
390
F
  0
LAYER
  5
78
330
2
100
AcDbSymbolTableRecord
100
AcDbLayerTableRecord
  2
METIN
 70
     0
 62
    96
  6
Continuous
370
    -3
390
F
  0
LAYER
  5
79
330
2
100
AcDbSymbolTableRecord
100
AcDbLayerTableRecord
  2
BALON
 70
     0
 62
     5
  6
Continuous
370
    -3
390
F
  0
LAYER
  5
7A
330
2
100
AcDbSymbolTableRecord
100
AcDbLayerTableRecord
  2
VURGU
 70
     0
 62
     7
  6
Continuous
370
    -3
390
F
  0
LAYER
  5
7B
330
2
100
AcDbSymbolTableRecord
100
AcDbLayerTableRecord
  2
SILIK
 70
     0
 62
     7
  6
Continuous
370
    -3
390
F
  0
LAYER
  5
7C
330
2
100
AcDbSymbolTableRecord
100
AcDbLayerTableRecord
  2
MODEL
 70
     0
 62
     7
  6
Continuous
370
    -3
390
F
  0
LAYER
  5
7D
330
2
100
AcDbSymbolTableRecord
100
AcDbLayerTableRecord
  2
DETAYLANDıRMA
 70
     0
 62
   190
  6
Continuous
370
    -3
390
F
  0
LAYER
  5
7E
330
2
100
AcDbSymbolTableRecord
100
AcDbLayerTableRecord
  2
TOLERANS
 70
     0
 62
   230
  6
Continuous
370
    -3
390
F
  0
LAYER
  5
7F
330
2
100
AcDbSymbolTableRecord
100
AcDbLayerTableRecord
  2
MERKEZ_CIZGILERI
 70
     0
 62
    30
  6
Continuous
370
    -3
390
F
  0
LAYER
  5
80
330
2
100
AcDbSymbolTableRecord
100
AcDbLayerTableRecord
  2
KESIT-DETAY_CIZGILERI
 70
     0
 62
     7
  6
Continuous
370
    -3
390
F
  0
LAYER
  5
81
330
2
100
AcDbSymbolTableRecord
100
AcDbLayerTableRecord
  2
\U+041E\U+0421\U+0415\U+0412\U+042B\U+0415
 70
     0
 62
     7
  6
Continuous
370
    -3
390
F
  0
LAYER
  5
82
330
2
100
AcDbSymbolTableRecord
100
AcDbLayerTableRecord
  2
\U+0412\U+041E\U+0414\U+042F\U+041D\U+042B\U+0415_\U+0417\U+041D\U+0410\U+041A\U+0418
 70
     0
 62
    11
  6
Continuous
370
    -3
390
F
  0
ENDTAB
  0
TABLE
  2
STYLE
  5
3
330
0
100
AcDbSymbolTable
 70
     1
  0
STYLE
  5
11
330
3
100
AcDbSymbolTableRecord
100
AcDbTextStyleTableRecord
  2
Standard
 70
     0
 40
0.0
 41
1.0
 50
0.0
 71
     0
 42
3.5
  3
txt
  4

  0
ENDTAB
  0
TABLE
  2
VIEW
  5
6
330
0
100
AcDbSymbolTable
 70
     0
  0
ENDTAB
  0
TABLE
  2
UCS
  5
7
330
0
100
AcDbSymbolTable
 70
     0
  0
ENDTAB
  0
TABLE
  2
APPID
  5
9
330
0
100
AcDbSymbolTable
 70
     1
  0
APPID
  5
12
330
9
100
AcDbSymbolTableRecord
100
AcDbRegAppTableRecord
  2
ACAD
 70
     0
  0
ENDTAB
  0
TABLE
  2
DIMSTYLE
  5
A
330
0
100
AcDbSymbolTable
 70
     1
100
AcDbDimStyleTable
  0
DIMSTYLE
105
27
330
A
100
AcDbSymbolTableRecord
100
AcDbDimStyleTableRecord
  2
ISO-25
 70
     0
 41
2.5
 42
0.625
 43
3.75
 44
1.25
 73
     0
 74
     0
 77
     1
 78
     8
140
2.5
141
2.5
143
0.0393700787
147
0.625
171
     3
172
     1
178
     0
271
     2
272
     2
274
     3
278
    44
283
     0
284
     8
340
11
  0
ENDTAB
  0
TABLE
  2
BLOCK_RECORD
  5
1
330
0
100
AcDbSymbolTable
 70
     1
  0
BLOCK_RECORD
  5
1F
330
1
100
AcDbSymbolTableRecord
100
AcDbBlockTableRecord
  2
*Model_Space
340
22
  0
BLOCK_RECORD
  5
1B
330
1
100
AcDbSymbolTableRecord
100
AcDbBlockTableRecord
  2
*Paper_Space
340
1E
  0
BLOCK_RECORD
  5
23
330
1
100
AcDbSymbolTableRecord
100
AcDbBlockTableRecord
  2
*Paper_Space0
340
26
  0
ENDTAB
  0
ENDSEC
  0
SECTION
  2
BLOCKS
  0
BLOCK
  5
20
330
1F
100
AcDbEntity
  8
0
100
AcDbBlockBegin
  2
*Model_Space
 70
     0
 10
0.0
 20
0.0
 30
0.0
  3
*Model_Space
  1

  0
ENDBLK
  5
21
330
1F
100
AcDbEntity
  8
0
100
AcDbBlockEnd
  0
BLOCK
  5
1C
330
1B
100
AcDbEntity
 67
     1
  8
0
100
AcDbBlockBegin
  2
*Paper_Space
 70
     0
 10
0.0
 20
0.0
 30
0.0
  3
*Paper_Space
  1

  0
ENDBLK
  5
1D
330
1B
100
AcDbEntity
 67
     1
  8
0
100
AcDbBlockEnd
  0
BLOCK
  5
24
330
23
100
AcDbEntity
  8
0
100
AcDbBlockBegin
  2
*Paper_Space0
 70
     0
 10
0.0
 20
0.0
 30
0.0
  3
*Paper_Space0
  1

  0
ENDBLK
  5
25
330
23
100
AcDbEntity
  8
0
100
AcDbBlockEnd
  0
ENDSEC
  0
SECTION
  2
ENTITIES
  0
CIRCLE
  5
83
330
1F
100
AcDbEntity
  8
0
  6
Continuous
 62
     7
370
    25
100
AcDbCircle
 10
135.9944086538
 20
118.27271875
 30
0.0
 40
157.5
  0
CIRCLE
  5
84
330
1F
100
AcDbEntity
  8
0
  6
Continuous
 62
     7
370
    25
100
AcDbCircle
 10
135.9944086538
 20
118.27271875
 30
0.0
 40
138.8
  0
CIRCLE
  5
85
330
1F
100
AcDbEntity
  8
0
  6
Continuous
 62
     7
370
    25
100
AcDbCircle
 10
135.9944086538
 20
118.27271875
 30
0.0
 40
169.0
  0
CIRCLE
  5
86
330
1F
100
AcDbEntity
  8
0
  6
Continuous
 62
     7
370
    25
100
AcDbCircle
 10
135.9944086538
 20
118.27271875
 30
0.0
 40
187.5
  0
LINE
  5
87
330
1F
100
AcDbEntity
  8
0
  6
Continuous
 62
     7
370
    25
100
AcDbLine
 10
323.4944086538
 20
468.16018204
 30
0.0
 11
323.4944086538
 21
493.16018204
 31
0.0
  0
LINE
  5
88
330
1F
100
AcDbEntity
  8
0
  6
Continuous
 62
     7
370
    25
100
AcDbLine
 10
-51.5055913462
 20
493.16018204
 30
0.0
 11
-51.5055913462
 21
468.16018204
 31
0.0
  0
LINE
  5
89
330
1F
100
AcDbEntity
  8
0
  6
Continuous
 62
     7
370
    25
100
AcDbLine
 10
304.9944086538
 20
493.16018204
 30
0.0
 11
293.4944086538
 21
525.16018204
 31
0.0
  0
LINE
  5
8A
330
1F
100
AcDbEntity
  8
0
  6
Continuous
 62
     7
370
    25
100
AcDbLine
 10
-21.5055913462
 20
525.16018204
 30
0.0
 11
-33.0055913462
 21
493.16018204
 31
0.0
  0
LINE
  5
8B
330
1F
100
AcDbEntity
  8
0
  6
Continuous
 62
     7
370
    25
100
AcDbLine
 10
293.4944086538
 20
525.16018204
 30
0.0
 11
293.4944086538
 21
691.16018204
 31
0.0
  0
LINE
  5
8C
330
1F
100
AcDbEntity
  8
0
  6
Continuous
 62
     7
370
    25
100
AcDbLine
 10
-21.5055913462
 20
691.16018204
 30
0.0
 11
-21.5055913462
 21
525.16018204
 31
0.0
  0
LINE
  5
8D
330
1F
100
AcDbEntity
  8
0
  6
Continuous
 62
     7
370
    25
100
AcDbLine
 10
323.4944086538
 20
468.16018204
 30
0.0
 11
-51.5055913462
 21
468.16018204
 31
0.0
  0
LINE
  5
8E
330
1F
100
AcDbEntity
  8
0
  6
Continuous
 62
     7
370
    25
100
AcDbLine
 10
323.4944086538
 20
493.16018204
 30
0.0
 11
-51.5055913462
 21
493.16018204
 31
0.0
  0
LINE
  5
8F
330
1F
100
AcDbEntity
  8
0
  6
Continuous
 62
     7
370
    25
100
AcDbLine
 10
293.4944086538
 20
525.16018204
 30
0.0
 11
-21.5055913462
 21
525.16018204
 31
0.0
  0
LINE
  5
90
330
1F
100
AcDbEntity
  8
0
  6
Continuous
 62
     7
370
    25
100
AcDbLine
 10
293.4944086538
 20
691.16018204
 30
0.0
 11
-21.5055913462
 21
691.16018204
 31
0.0
  0
LINE
  5
91
330
1F
100
AcDbEntity
  8
0
  6
Continuous
 62
     7
370
    25
100
AcDbLine
 10
-227.1356157251
 20
305.77271875
 30
0.0
 11
-252.1356157251
 21
305.77271875
 31
0.0
  0
LINE
  5
92
330
1F
100
AcDbEntity
  8
0
  6
Continuous
 62
     7
370
    25
100
AcDbLine
 10
-252.1356157251
 20
-69.22728125
 30
0.0
 11
-227.1356157251
 21
-69.22728125
 31
0.0
  0
LINE
  5
93
330
1F
100
AcDbEntity
  8
0
  6
Continuous
 62
     7
370
    25
100
AcDbLine
 10
-252.1356157251
 20
287.27271875
 30
0.0
 11
-284.1356157251
 21
275.77271875
 31
0.0
  0
LINE
  5
94
330
1F
100
AcDbEntity
  8
0
  6
Continuous
 62
     7
370
    25
100
AcDbLine
 10
-284.1356157251
 20
-39.22728125
 30
0.0
 11
-252.1356157251
 21
-50.72728125
 31
0.0
  0
LINE
  5
95
330
1F
100
AcDbEntity
  8
0
  6
Continuous
 62
     7
370
    25
100
AcDbLine
 10
-284.1356157251
 20
275.77271875
 30
0.0
 11
-450.1356157251
 21
275.77271875
 31
0.0
  0
LINE
  5
96
330
1F
100
AcDbEntity
  8
0
  6
Continuous
 62
     7
370
    25
100
AcDbLine
 10
-450.1356157251
 20
-39.22728125
 30
0.0
 11
-284.1356157251
 21
-39.22728125
 31
0.0
  0
LINE
  5
97
330
1F
100
AcDbEntity
  8
0
  6
Continuous
 62
     7
370
    25
100
AcDbLine
 10
-227.1356157251
 20
305.77271875
 30
0.0
 11
-227.1356157251
 21
-69.22728125
 31
0.0
  0
LINE
  5
98
330
1F
100
AcDbEntity
  8
0
  6
Continuous
 62
     7
370
    25
100
AcDbLine
 10
-252.1356157251
 20
305.77271875
 30
0.0
 11
-252.1356157251
 21
-69.22728125
 31
0.0
  0
LINE
  5
99
330
1F
100
AcDbEntity
  8
0
  6
Continuous
 62
     7
370
    25
100
AcDbLine
 10
-284.1356157251
 20
275.77271875
 30
0.0
 11
-284.1356157251
 21
-39.22728125
 31
0.0
  0
LINE
  5
9A
330
1F
100
AcDbEntity
  8
0
  6
Continuous
 62
     7
370
    25
100
AcDbLine
 10
-450.1356157251
 20
275.77271875
 30
0.0
 11
-450.1356157251
 21
-39.22728125
 31
0.0
  0
LINE
  5
9B
330
1F
100
AcDbEntity
  8
0
  6
Continuous
 62
     7
370
    25
100
AcDbLine
 10
-51.5055913462
 20
-248.4113899908
 30
0.0
 11
-51.5055913462
 21
-273.4113899908
 31
0.0
  0
LINE
  5
9C
330
1F
100
AcDbEntity
  8
0
  6
Continuous
 62
     7
370
    25
100
AcDbLine
 10
323.4944086538
 20
-273.4113899908
 30
0.0
 11
323.4944086538
 21
-248.4113899908
 31
0.0
  0
LINE
  5
9D
330
1F
100
AcDbEntity
  8
0
  6
Continuous
 62
     7
370
    25
100
AcDbLine
 10
-33.0055913462
 20
-273.4113899908
 30
0.0
 11
-21.5055913462
 21
-305.4113899908
 31
0.0
  0
LINE
  5
9E
330
1F
100
AcDbEntity
  8
0
  6
Continuous
 62
     7
370
    25
100
AcDbLine
 10
293.4944086538
 20
-305.4113899908
 30
0.0
 11
304.9944086538
 21
-273.4113899908
 31
0.0
  0
LINE
  5
9F
330
1F
100
AcDbEntity
  8
0
  6
Continuous
 62
     7
370
    25
100
AcDbLine
 10
-21.5055913462
 20
-305.4113899908
 30
0.0
 11
-21.5055913462
 21
-471.4113899908
 31
0.0
  0
LINE
  5
A0
330
1F
100
AcDbEntity
  8
0
  6
Continuous
 62
     7
370
    25
100
AcDbLine
 10
293.4944086538
 20
-471.4113899908
 30
0.0
 11
293.4944086538
 21
-305.4113899908
 31
0.0
  0
LINE
  5
A1
330
1F
100
AcDbEntity
  8
0
  6
Continuous
 62
     7
370
    25
100
AcDbLine
 10
-51.5055913462
 20
-248.4113899908
 30
0.0
 11
323.4944086538
 21
-248.4113899908
 31
0.0
  0
LINE
  5
A2
330
1F
100
AcDbEntity
  8
0
  6
Continuous
 62
     7
370
    25
100
AcDbLine
 10
-51.5055913462
 20
-273.4113899908
 30
0.0
 11
323.4944086538
 21
-273.4113899908
 31
0.0
  0
LINE
  5
A3
330
1F
100
AcDbEntity
  8
0
  6
Continuous
 62
     7
370
    25
100
AcDbLine
 10
-21.5055913462
 20
-305.4113899908
 30
0.0
 11
293.4944086538
 21
-305.4113899908
 31
0.0
  0
LINE
  5
A4
330
1F
100
AcDbEntity
  8
0
  6
Continuous
 62
     7
370
    25
100
AcDbLine
 10
-21.5055913462
 20
-471.4113899908
 30
0.0
 11
293.4944086538
 21
-471.4113899908
 31
0.0
  0
LINE
  5
A5
330
1F
100
AcDbEntity
  8
0
  6
Continuous
 62
     7
370
    25
100
AcDbLine
 10
512.5102644537
 20
-69.22728125
 30
0.0
 11
537.5102644537
 21
-69.22728125
 31
0.0
  0
LINE
  5
A6
330
1F
100
AcDbEntity
  8
0
  6
Continuous
 62
     7
370
    25
100
AcDbLine
 10
537.5102644537
 20
305.77271875
 30
0.0
 11
512.5102644537
 21
305.77271875
 31
0.0
  0
LINE
  5
A7
330
1F
100
AcDbEntity
  8
0
  6
Continuous
 62
     7
370
    25
100
AcDbLine
 10
537.5102644537
 20
-50.72728125
 30
0.0
 11
569.5102644537
 21
-39.22728125
 31
0.0
  0
LINE
  5
A8
330
1F
100
AcDbEntity
  8
0
  6
Continuous
 62
     7
370
    25
100
AcDbLine
 10
569.5102644537
 20
275.77271875
 30
0.0
 11
537.5102644537
 21
287.27271875
 31
0.0
  0
LINE
  5
A9
330
1F
100
AcDbEntity
  8
0
  6
Continuous
 62
     7
370
    25
100
AcDbLine
 10
569.5102644537
 20
-39.22728125
 30
0.0
 11
735.5102644537
 21
-39.22728125
 31
0.0
  0
LINE
  5
AA
330
1F
100
AcDbEntity
  8
0
  6
Continuous
 62
     7
370
    25
100
AcDbLine
 10
735.5102644537
 20
275.77271875
 30
0.0
 11
569.5102644537
 21
275.77271875
 31
0.0
  0
LINE
  5
AB
330
1F
100
AcDbEntity
  8
0
  6
Continuous
 62
     7
370
    25
100
AcDbLine
 10
512.5102644537
 20
118.27271875
 30
0.0
 11
512.5102644537
 21
305.77271875
 31
0.0
  0
LINE
  5
AC
330
1F
100
AcDbEntity
  8
0
  6
Continuous
 62
     7
370
    25
100
AcDbLine
 10
512.5102644537
 20
-69.22728125
 30
0.0
 11
512.5102644537
 21
118.27271875
 31
0.0
  0
LINE
  5
AD
330
1F
100
AcDbEntity
  8
0
  6
Continuous
 62
     7
370
    25
100
AcDbLine
 10
537.5102644537
 20
118.27271875
 30
0.0
 11
537.5102644537
 21
305.77271875
 31
0.0
  0
LINE
  5
AE
330
1F
100
AcDbEntity
  8
0
  6
Continuous
 62
     7
370
    25
100
AcDbLine
 10
537.5102644537
 20
-69.22728125
 30
0.0
 11
537.5102644537
 21
118.27271875
 31
0.0
  0
LINE
  5
AF
330
1F
100
AcDbEntity
  8
0
  6
Continuous
 62
     7
370
    25
100
AcDbLine
 10
569.5102644537
 20
118.27271875
 30
0.0
 11
569.5102644537
 21
275.77271875
 31
0.0
  0
LINE
  5
B0
330
1F
100
AcDbEntity
  8
0
  6
Continuous
 62
     7
370
    25
100
AcDbLine
 10
569.5102644537
 20
-39.22728125
 30
0.0
 11
569.5102644537
 21
118.27271875
 31
0.0
  0
LINE
  5
B1
330
1F
100
AcDbEntity
  8
0
  6
Continuous
 62
     7
370
    25
100
AcDbLine
 10
735.5102644537
 20
118.27271875
 30
0.0
 11
735.5102644537
 21
275.77271875
 31
0.0
  0
LINE
  5
B2
330
1F
100
AcDbEntity
  8
0
  6
Continuous
 62
     7
370
    25
100
AcDbLine
 10
735.5102644537
 20
-39.22728125
 30
0.0
 11
735.5102644537
 21
118.27271875
 31
0.0
  0
LINE
  5
B3
330
1F
100
AcDbEntity
  8
0
  6
Continuous
 62
     7
370
    25
100
AcDbLine
 10
710.4918938772
 20
-191.984367882
 30
0.0
 11
593.1121682002
 21
-124.2224946007
 31
0.0
  0
LINE
  5
B4
330
1F
100
AcDbEntity
  8
0
  6
Continuous
 62
     7
370
    25
100
AcDbLine
 10
435.62496781
 20
-397.0278862506
 30
0.0
 11
553.004693487
 21
-464.7897595319
 31
0.0
  0
LINE
  5
B5
330
1F
100
AcDbEntity
  8
0
  6
Continuous
 62
     7
370
    25
100
AcDbLine
 10
765.7957613943
 20
-189.2705331975
 30
0.0
 11
748.1180918647
 21
-179.0654317997
 31
0.0
  0
LINE
  5
B6
330
1F
100
AcDbEntity
  8
0
  6
Continuous
 62
     7
370
    25
100
AcDbLine
 10
560.6333294954
 20
-503.8337551925
 30
0.0
 11
578.3109990251
 21
-514.0388565903
 31
0.0
  0
LINE
  5
B7
330
1F
100
AcDbEntity
  8
0
  6
Continuous
 62
     7
370
    25
100
AcDbLine
 10
714.6184470262
 20
-187.4946496617
 30
0.0
 11
700.3174070754
 21
-186.1107616746
 31
0.0
  0
LINE
  5
B8
330
1F
100
AcDbEntity
  8
0
  6
Continuous
 62
     7
370
    25
100
AcDbLine
 10
542.8302066853
 20
-458.9161533245
 30
0.0
 11
551.1803060381
 21
-470.608489722
 31
0.0
  0
LWPOLYLINE
  5
B9
330
1F
100
AcDbEntity
  8
0
  6
Continuous
 62
     7
370
    25
100
AcDbPolyline
 90
      134
 70
   128
 43
0.0
 10
402.9992499682
 20
-324.9173292317
 10
403.1235042165
 20
-318.7722932996
 10
403.4959897014
 20
-312.4975084441
 10
404.1158752622
 20
-306.1069761639
 10
404.9817776919
 20
-299.6149562353
 10
406.0917648234
 20
-293.0359348933
 10
407.4433598416
 20
-286.384592507
 10
409.0335468094
 20
-279.6757708222
 10
410.8587773979
 20
-272.9244398433
 10
412.9149788039
 20
-266.1456644296
 10
415.197562838
 20
-259.3545706799
 10
417.7014361629
 20
-252.5663121796
 10
420.4210116579
 20
-245.7960361879
 10
423.3502208868
 20
-239.0588498378
 10
426.4825276384
 20
-232.3697864265
 10
429.8109425114
 20
-225.7437718701
 10
433.3280385109
 20
-219.1955913978
 10
437.0259676204
 20
-212.739856561
 10
440.8964783141
 20
-206.3909726282
 10
444.9309339692
 20
-200.1631064422
 10
449.1203321374
 20
-194.0701548075
 10
453.4553246335
 20
-188.1257134819
 10
457.926238394
 20
-182.3430468383
 10
462.5230970621
 20
-176.7350582672
 10
467.2356432486
 20
-171.3142613838
 10
472.0533614203
 20
-166.0927521058
 10
476.9655013641
 20
-161.082181662
 10
481.961102175
 20
-156.2937305943
 10
487.0290167143
 20
-151.7380838095
 10
492.1579364829
 20
-147.4254067369
 10
497.3364168552
 20
-143.3653226454
 10
502.5529026168
 20
-139.5668911702
 10
507.795753748
 20
-136.0385880972
 10
513.053271398
 20
-132.7882864502
 10
518.3137239889
 20
-129.8232389231
 10
523.5653733943
 20
-127.1500616964
 10
528.7965011307
 20
-124.7747196737
 10
533.9954345066
 20
-122.7025131719
 10
539.1505726688
 20
-120.938066094
 10
544.2504124882
 20
-119.4853156112
 10
549.2835742281
 20
-118.3475033782
 10
554.2388269366
 20
-117.5271682987
 10
559.1051135072
 20
-117.0261408612
 10
563.8715753518
 20
-116.8455390538
 10
568.5275766302
 20
-116.9857658697
 10
573.062727983
 20
-117.4465084081
 10
577.4669097141
 20
-118.2267385722
 10
581.7302943719
 20
-119.3247153635
 10
585.8433686783
 20
-120.7379887663
 10
589.796954756
 20
-122.4634052151
 10
593.5822306087
 20
-124.4971146311
 10
597.1907498058
 20
-126.8345790135
 10
600.6144603299
 20
-129.470582565
 10
603.8457225441
 20
-132.3992433312
 10
606.877326239
 20
-135.6140263245
 10
609.7025067212
 20
-139.1077581073
 10
612.3149599083
 20
-142.8726427976
 10
614.7088563959
 20
-146.9002794656
 10
616.8788544647
 20
-151.1816808789
 10
618.8201120005
 20
-155.707293557
 10
620.5282972988
 20
-160.4670190884
 10
621.9995987301
 20
-165.450236664
 10
623.2307332457
 20
-170.6458267772
 10
624.218953703
 20
-176.0421960346
 10
624.9620549959
 20
-181.6273030263
 10
625.4583789747
 20
-187.3886851948
 10
625.7068181465
 20
-193.3134866437
 10
625.7068181465
 20
-199.3884868241
 10
625.4583789747
 20
-205.6001300352
 10
624.9620549959
 20
-211.934555672
 10
624.218953703
 20
-218.3776291542
 10
623.2307332457
 20
-224.9149734653
 10
621.9995987301
 20
-231.532001234
 10
620.5282972988
 20
-238.2139472838
 10
618.8201120005
 20
-244.9459015804
 10
616.8788544647
 20
-251.7128425014
 10
614.7088563959
 20
-258.4996703555
 10
612.3149599083
 20
-265.2912410761
 10
609.7025067212
 20
-272.0724000131
 10
606.877326239
 20
-278.8280157494
 10
603.8457225441
 20
-285.5430138646
 10
600.6144603299
 20
-292.2024105724
 10
597.1907498058
 20
-298.7913461545
 10
593.5822306087
 20
-305.2951181195
 10
589.796954756
 20
-311.6992140087
 10
585.8433686783
 20
-317.9893437803
 10
581.7302943719
 20
-324.151471695
 10
577.4669097141
 20
-330.1718476359
 10
573.062727983
 20
-336.0370377904
 10
568.5275766302
 20
-341.7339546255
 10
563.8715753518
 20
-347.2498860924
 10
559.1051135072
 20
-352.572523991
 10
554.2388269366
 20
-357.6899914349
 10
549.2835742281
 20
-362.5908693532
 10
544.2504124882
 20
-367.264221971
 10
539.1505726688
 20
-371.699621211
 10
533.9954345066
 20
-375.8871699633
 10
528.7965011307
 20
-379.8175241692
 10
523.5653733943
 20
-383.4819136716
 10
518.3137239889
 20
-386.8721617847
 10
513.053271398
 20
-389.9807035392
 10
507.795753748
 20
-392.800602563
 10
502.5529026168
 20
-395.3255665587
 10
497.3364168552
 20
-397.5499613443
 10
492.1579364829
 20
-399.4688234253
 10
487.0290167143
 20
-401.0778710701
 10
481.961102175
 20
-402.3735138641
 10
476.9655013641
 20
-403.3528607217
 10
472.0533614203
 20
-404.0137263371
 10
467.2356432486
 20
-404.3546360607
 10
462.5230970621
 20
-404.3748291896
 10
457.926238394
 20
-404.074260665
 10
453.4553246335
 20
-403.4536011728
 10
449.1203321374
 20
-402.5142356471
 10
444.9309339691
 20
-401.2582601796
 10
440.8964783141
 20
-399.6884773428
 10
437.0259676204
 20
-397.808389936
 10
433.3280385109
 20
-395.6221931692
 10
429.8109425114
 20
-393.1347653025
 10
426.4825276384
 20
-390.3516567599
 10
423.3502208868
 20
-387.279077745
 10
420.4210116579
 20
-383.9238843828
 10
417.7014361629
 20
-380.2935634218
 10
415.197562838
 20
-376.3962155277
 10
412.9149788039
 20
-372.2405372074
 10
410.8587773979
 20
-367.8358014042
 10
409.0335468094
 20
-363.1918368062
 10
407.4433598416
 20
-358.3190059142
 10
406.0917648234
 20
-353.2281819194
 10
404.9817776919
 20
-347.9307244406
 10
404.1158752622
 20
-342.438454177
 10
403.4959897014
 20
-336.7636265311
 10
403.1235042165
 20
-330.9189042624
 10
402.9992499682
 20
-324.9173292317
  0
LWPOLYLINE
  5
BA
330
1F
100
AcDbEntity
  8
0
  6
Continuous
 62
     7
370
    25
100
AcDbPolyline
 90
      126
 70
   128
 43
0.0
 10
416.2221467764
 20
-317.2839133861
 10
416.3461099654
 20
-311.5178677137
 10
416.7176863905
 20
-305.6232627216
 10
417.3359374176
 20
-299.6149886936
 10
418.1993012907
 20
-293.5082230514
 10
419.305597078
 20
-287.3183920148
 10
420.6520301801
 20
-281.0611316344
 10
422.2351993902
 20
-274.7522482929
 10
424.0511054855
 20
-268.4076787772
 10
426.0951613296
 20
-262.0434500205
 10
428.36220346
 20
-255.6756386169
 10
430.8465051316
 20
-249.3203302108
 10
433.5417907827
 20
-242.9935788627
 10
436.4412518879
 20
-236.7113664956
 10
439.5375641567
 20
-230.4895625232
 10
442.8229060357
 20
-224.3438837623
 10
446.2889784661
 20
-218.2898547308
 10
449.9270258482
 20
-212.3427684315
 10
453.7278581585
 20
-206.5176477205
 10
457.6818741648
 20
-200.8292073582
 10
461.7790856795
 20
-195.2918168387
 10
466.0091427906
 20
-189.9194640911
 10
470.3613600069
 20
-184.7257201445
 10
474.8247432498
 20
-179.7237048471
 10
479.388017626
 20
-174.9260537235
 10
484.0396559084
 20
-170.3448860569
 10
488.7679076549
 20
-165.9917742744
 10
493.5608288912
 20
-161.8777147141
 10
498.4063122825
 20
-158.0130998475
 10
503.292117717
 20
-154.4076920272
 10
508.2059032262
 20
-151.0705988263
 10
513.1352561615
 20
-148.0102500318
 10
518.0677245496
 20
-145.2343763503
 10
522.9908485472
 20
-142.7499898798
 10
527.8921919159
 20
-140.5633663959
 10
532.7593734368
 20
-138.6800294995
 10
537.5800981872
 20
-137.104736663
 10
542.3421885978
 20
-135.8414672127
 10
547.033615215
 20
-134.893412277
 10
551.642527088
 20
-134.2629667249
 10
556.1572817055
 20
-133.9517231166
 10
560.5664744054
 20
-133.9604676805
 10
564.8589671843
 20
-134.289178327
 10
569.0239168329
 20
-134.9370247045
 10
573.050802327
 20
-135.9023702968
 10
576.9294514043
 20
-137.1827765572
 10
580.6500662605
 20
-138.7750090684
 10
584.2032482997
 20
-140.6750457128
 10
587.5800218757
 20
-142.8780868329
 10
590.7718569654
 20
-145.3785673558
 10
593.7706907162
 20
-148.1701708506
 10
596.5689478139
 20
-151.2458454845
 10
599.1595596182
 20
-154.5978218366
 10
601.5359820189
 20
-158.2176325237
 10
603.6922119667
 20
-162.0961335897
 10
605.6228026376
 20
-166.2235276045
 10
607.3228771921
 20
-170.5893884124
 10
608.7881410943
 20
-175.1826874703
 10
610.0148929603
 20
-179.991821706
 10
611.0000339086
 20
-185.0046428292
 10
611.7410753875
 20
-190.2084880185
 10
612.236145462
 20
-195.5902119094
 10
612.4839935422
 20
-201.1362198003
 10
612.4839935422
 20
-206.8325019939
 10
612.236145462
 20
-212.664669187
 10
611.7410753875
 20
-218.6179888192
 10
611.0000339086
 20
-224.6774222884
 10
610.0148929603
 20
-230.8276629397
 10
608.7881410943
 20
-237.0531747315
 10
607.3228771921
 20
-243.3382314807
 10
605.6228026376
 20
-249.6669565886
 10
603.6922119667
 20
-256.0233631461
 10
601.5359820189
 20
-262.3913943187
 10
599.1595596182
 20
-268.754963907
 10
596.5689478139
 20
-275.097996982
 10
593.7706907162
 20
-281.4044704915
 10
590.7718569654
 20
-287.6584537361
 10
587.5800218757
 20
-293.8441486115
 10
584.2032482997
 20
-299.9459295155
 10
580.6500662605
 20
-305.94838282
 10
576.9294514043
 20
-311.836345807
 10
573.050802327
 20
-317.594944971
 10
569.0239168329
 20
-323.2096335907
 10
564.8589671843
 20
-328.6662284754
 10
560.5664744054
 20
-333.9509457929
 10
556.1572817055
 20
-339.0504358885
 10
551.642527088
 20
-343.9518170076
 10
547.033615215
 20
-348.6427078363
 10
542.3421885978
 20
-353.1112587772
 10
537.5800981872
 20
-357.3461818827
 10
532.7593734368
 20
-361.3367793696
 10
527.8921919159
 20
-365.0729706423
 10
522.9908485472
 20
-368.5453177573
 10
518.0677245496
 20
-371.7450492645
 10
513.1352561615
 20
-374.6640823644
 10
508.2059032262
 20
-377.2950433261
 10
503.292117717
 20
-379.6312861138
 10
498.4063122824
 20
-381.6669091755
 10
493.5608288912
 20
-383.3967703507
 10
488.7679076549
 20
-384.8164998599
 10
484.0396559084
 20
-385.9225113431
 10
479.388017626
 20
-386.7120109195
 10
474.8247432498
 20
-387.1830042444
 10
470.3613600069
 20
-387.3343015479
 10
466.0091427906
 20
-387.1655206399
 10
461.7790856795
 20
-386.6770878756
 10
457.6818741648
 20
-385.8702370786
 10
453.7278581585
 20
-384.747006424
 10
449.9270258482
 20
-383.3102332898
 10
446.2889784661
 20
-381.5635470898
 10
442.8229060357
 20
-379.5113601049
 10
439.5375641567
 20
-377.1588563375
 10
436.4412518879
 20
-374.5119784162
 10
433.5417907827
 20
-371.5774125845
 10
430.8465051316
 20
-368.3625718103
 10
428.36220346
 20
-364.8755770605
 10
426.0951613296
 20
-361.1252367863
 10
424.0511054855
 20
-357.1210246728
 10
422.2351993902
 20
-352.8730557073
 10
420.6520301801
 20
-348.3920606281
 10
419.305597078
 20
-343.6893588177
 10
418.1993012907
 20
-338.7768297089
 10
417.3359374176
 20
-333.6668827767
 10
416.7176863905
 20
-328.3724261905
 10
416.3461099654
 20
-322.906834207
 10
416.2221467764
 20
-317.2839133861
  0
LWPOLYLINE
  5
BB
330
1F
100
AcDbEntity
  8
0
  6
Continuous
 62
     7
370
    25
100
AcDbPolyline
 90
       69
 70
   128
 43
0.0
 10
710.4918938772
 20
-191.984367882
 10
710.9619562857
 20
-192.2589879124
 10
714.5704754828
 20
-194.5964522947
 10
717.9941860069
 20
-197.2324558463
 10
721.2254482211
 20
-200.1611166124
 10
724.2570519159
 20
-203.3758996058
 10
727.0822323981
 20
-206.8696313885
 10
729.6946855853
 20
-210.6345160788
 10
732.0885820728
 20
-214.6621527468
 10
734.2585801416
 20
-218.9435541602
 10
736.1998376775
 20
-223.4691668383
 10
737.9080229757
 20
-228.2288923696
 10
739.3793244071
 20
-233.2121099453
 10
740.6104589227
 20
-238.4077000584
 10
741.59867938
 20
-243.8040693158
 10
742.3417806728
 20
-249.3891763076
 10
742.8381046516
 20
-255.1505584761
 10
743.0865438235
 20
-261.075359925
 10
743.0865438235
 20
-267.1503601054
 10
742.8381046516
 20
-273.3620033165
 10
742.3417806728
 20
-279.6964289533
 10
741.59867938
 20
-286.1395024355
 10
740.6104589227
 20
-292.6768467466
 10
739.3793244071
 20
-299.2938745153
 10
737.9080229757
 20
-305.9758205651
 10
736.1998376775
 20
-312.7077748617
 10
734.2585801416
 20
-319.4747157827
 10
732.0885820728
 20
-326.2615436368
 10
729.6946855853
 20
-333.0531143573
 10
727.0822323981
 20
-339.8342732943
 10
724.2570519159
 20
-346.5898890306
 10
721.2254482211
 20
-353.3048871459
 10
717.9941860069
 20
-359.9642838536
 10
714.5704754828
 20
-366.5532194358
 10
710.9619562857
 20
-373.0569914007
 10
707.176680433
 20
-379.46108729
 10
703.2230943552
 20
-385.7512170615
 10
699.1100200489
 20
-391.9133449763
 10
694.846635391
 20
-397.9337209172
 10
690.44245366
 20
-403.7989110716
 10
685.9073023072
 20
-409.4958279068
 10
681.2513010288
 20
-415.0117593737
 10
676.4848391842
 20
-420.3343972723
 10
671.6185526136
 20
-425.4518647162
 10
666.6632999051
 20
-430.3527426345
 10
661.6301381652
 20
-435.0260952522
 10
656.5302983457
 20
-439.4614944923
 10
651.3751601835
 20
-443.6490432446
 10
646.1762268076
 20
-447.5793974505
 10
640.9450990713
 20
-451.2437869529
 10
635.6934496659
 20
-454.634035066
 10
630.4329970749
 20
-457.7425768205
 10
625.175479425
 20
-460.5624758443
 10
619.9326282937
 20
-463.08743984
 10
614.7161425322
 20
-465.3118346256
 10
609.5376621598
 20
-467.2306967066
 10
604.4087423913
 20
-468.8397443514
 10
599.340827852
 20
-470.1353871454
 10
594.3452270411
 20
-471.114734003
 10
589.4330870972
 20
-471.7755996184
 10
584.6153689255
 20
-472.116509342
 10
579.902822739
 20
-472.1367024708
 10
575.3059640709
 20
-471.8361339462
 10
570.8350503105
 20
-471.2154744541
 10
566.5000578144
 20
-470.2761089284
 10
562.3106596461
 20
-469.0201334609
 10
558.2762039911
 20
-467.4503506241
 10
554.4056932974
 20
-465.5702632173
 10
553.004693487
 20
-464.7897595319
  0
ARC
  5
BC
330
1F
100
AcDbEntity
  8
0
  6
Continuous
 62
     7
370
    25
100
AcDbCircle
 10
779.4115504469
 20
-413.6312473638
 30
0.0
 40
234.8569476269394
100
AcDbArc
 50
138.7803252712
 51
161.2250512615
  0
LWPOLYLINE
  5
BD
330
1F
100
AcDbEntity
  8
0
  6
Continuous
 62
     7
370
    25
100
AcDbPolyline
 90
       74
 70
   128
 43
0.0
 10
765.7957613943
 20
-189.2705331975
 10
768.3076931065
 20
-190.800511361
 10
772.167010231
 20
-193.4863279685
 10
775.8383744757
 20
-196.4690891582
 10
779.314893238
 20
-199.7431951077
 10
782.5900397171
 20
-203.3024990251
 10
785.6576651678
 20
-207.1403186892
 10
788.5120104437
 20
-211.2494489946
 10
791.1477168099
 20
-215.6221754785
 10
793.559836003
 20
-220.2502888039
 10
795.7438395214
 20
-225.1251001715
 10
797.6956271265
 20
-230.2374576324
 10
799.4115345412
 20
-235.5777632697
 10
800.8883403285
 20
-241.1359912174
 10
802.1232719399
 20
-246.9017064834
 10
803.1140109202
 20
-252.8640845397
 10
803.8586972607
 20
-259.0119316445
 10
804.3559328905
 20
-265.3337058573
 10
804.6047843017
 20
-271.8175387074
 10
804.6047843017
 20
-278.4512574763
 10
804.3559328905
 20
-285.2224080501
 10
803.8586972607
 20
-292.1182783011
 10
803.1140109202
 20
-299.1259219533
 10
802.1232719399
 20
-306.2321828882
 10
800.8883403285
 20
-313.4237198432
 10
799.4115345412
 20
-320.6870314592
 10
797.6956271265
 20
-328.0084816275
 10
795.7438395214
 20
-335.3743250906
 10
793.559836003
 20
-342.7707332468
 10
791.1477168099
 20
-350.1838201127
 10
788.5120104437
 20
-357.5996683924
 10
785.6576651678
 20
-365.0043556055
 10
782.5900397171
 20
-372.3839802255
 10
779.314893238
 20
-379.7246877782
 10
775.8383744757
 20
-387.0126968523
 10
772.167010231
 20
-394.2343249721
 10
768.3076931065
 20
-401.3760142856
 10
764.267668567
 20
-408.4243570172
 10
760.0545213364
 20
-415.3661206399
 10
755.6761611584
 20
-422.1882727178
 10
751.1408079468
 20
-428.8780053733
 10
746.4569763532
 20
-435.4227593323
 10
741.6334597822
 20
-441.810247503
 10
736.679313882
 20
-448.0284780439
 10
731.603839544
 20
-454.0657768768
 10
726.4165654409
 20
-459.910809604
 10
721.1272301378
 20
-465.5526027873
 10
715.7457638092
 20
-470.9805645495
 10
710.2822695956
 20
-476.1845044595
 10
704.7470046367
 20
-481.154652664
 10
699.150360814
 20
-485.8816782289
 10
693.5028452415
 20
-490.3567066577
 10
687.8150605397
 20
-494.5713365521
 10
682.0976849299
 20
-498.5176553848
 10
676.3614521875
 20
-502.1882543547
 10
670.6171314902
 20
-505.5762422956
 10
664.8755071997
 20
-508.6752586142
 10
659.1473586158
 20
-511.4794852311
 10
653.4434397389
 20
-513.983657504
 10
647.7744590808
 20
-516.183074111
 10
642.1510595602
 20
-518.0736058773
 10
636.5837985222
 20
-519.6517035269
 10
631.0831279176
 20
-520.9144043466
 10
625.6593746809
 20
-521.8593377473
 10
620.3227213419
 20
-522.4847297154
 10
615.0831869097
 20
-522.7894061428
 10
609.9506080627
 20
-522.7727950313
 10
604.9346206815
 20
-522.4349275666
 10
600.0446417581
 20
-521.7764380596
 10
595.2898517172
 20
-520.7985627554
 10
590.6791771801
 20
-519.5031375128
 10
586.2212742066
 20
-517.8925943573
 10
581.9245120437
 20
-515.9699569155
 10
578.3109990251
 20
-514.0388565903
  0
LWPOLYLINE
  5
BE
330
1F
100
AcDbEntity
  8
0
  6
Continuous
 62
     7
370
    25
100
AcDbPolyline
 90
      101
 70
   128
 43
0.0
 10
682.247702472
 20
-175.679343246
 10
687.069335107
 20
-174.2023804356
 10
692.6046000659
 20
-172.7816477521
 10
698.0680942795
 20
-171.6775715131
 10
703.4495606082
 20
-170.8922245062
 10
708.7388959112
 20
-170.4270811384
 10
713.9261700143
 20
-170.2830146677
 10
719.0016443523
 20
-170.460295564
 10
723.9557902525
 20
-170.9585910008
 10
728.7793068235
 20
-171.7769654805
 10
733.4631384171
 20
-172.9138825906
 10
737.9984916288
 20
-174.3672078879
 10
742.3768518068
 20
-176.1342129062
 10
746.5899990374
 20
-178.211580278
 10
750.6300235769
 20
-180.5954099632
 10
754.4893407013
 20
-183.2812265707
 10
758.1607049461
 20
-186.2639877604
 10
761.6372237084
 20
-189.5380937099
 10
764.9123701875
 20
-193.0973976273
 10
767.9799956381
 20
-196.9352172914
 10
770.834340914
 20
-201.0443475968
 10
773.4700472802
 20
-205.4170740807
 10
775.8821664734
 20
-210.0451874061
 10
778.0661699917
 20
-214.9199987737
 10
780.0179575968
 20
-220.0323562347
 10
781.7338650115
 20
-225.3726618719
 10
783.2106707988
 20
-230.9308898196
 10
784.4456024102
 20
-236.6966050856
 10
785.4363413906
 20
-242.6589831419
 10
786.1810277311
 20
-248.8068302467
 10
786.6782633609
 20
-255.1286044595
 10
786.927114772
 20
-261.6124373097
 10
786.927114772
 20
-268.2461560786
 10
786.6782633609
 20
-275.0173066523
 10
786.1810277311
 20
-281.9131769033
 10
785.4363413906
 20
-288.9208205555
 10
784.4456024102
 20
-296.0270814904
 10
783.2106707988
 20
-303.2186184454
 10
781.7338650115
 20
-310.4819300614
 10
780.0179575968
 20
-317.8033802298
 10
778.0661699917
 20
-325.1692236928
 10
775.8821664734
 20
-332.565631849
 10
773.4700472802
 20
-339.9787187149
 10
770.834340914
 20
-347.3945669946
 10
767.9799956381
 20
-354.7992542077
 10
764.9123701875
 20
-362.1788788277
 10
761.6372237084
 20
-369.5195863804
 10
758.1607049461
 20
-376.8075954545
 10
754.4893407013
 20
-384.0292235744
 10
750.6300235769
 20
-391.1709128878
 10
746.5899990374
 20
-398.2192556194
 10
742.3768518068
 20
-405.1610192421
 10
737.9984916288
 20
-411.98317132
 10
733.4631384171
 20
-418.6729039755
 10
728.7793068235
 20
-425.2176579345
 10
723.9557902525
 20
-431.6051461052
 10
719.0016443523
 20
-437.8233766461
 10
713.9261700143
 20
-443.860675479
 10
708.7388959112
 20
-449.7057082062
 10
703.4495606082
 20
-455.3475013895
 10
698.0680942795
 20
-460.7754631517
 10
692.6046000659
 20
-465.9794030617
 10
687.069335107
 20
-470.9495512662
 10
681.4726912843
 20
-475.6765768311
 10
675.8251757119
 20
-480.1516052599
 10
670.13739101
 20
-484.3662351543
 10
664.4200154002
 20
-488.312553987
 10
658.6837826579
 20
-491.9831529569
 10
652.9394619605
 20
-495.3711408978
 10
647.19783767
 20
-498.4701572164
 10
641.4696890861
 20
-501.2743838334
 10
635.7657702092
 20
-503.7785561062
 10
630.0967895511
 20
-505.9779727132
 10
624.4733900305
 20
-507.8685044795
 10
618.9061289925
 20
-509.4466021292
 10
613.405458388
 20
-510.7093029488
 10
607.9817051512
 20
-511.6542363495
 10
602.6450518122
 20
-512.2796283176
 10
597.40551738
 20
-512.584304745
 10
592.2729385331
 20
-512.5676936335
 10
587.2569511518
 20
-512.2298261688
 10
582.3669722285
 20
-511.5713366618
 10
577.6121821875
 20
-510.5934613576
 10
573.0015076505
 20
-509.298036115
 10
568.543604677
 20
-507.6874929595
 10
564.2468425141
 20
-505.7648555177
 10
560.1192878838
 20
-503.5337333404
 10
556.1686898386
 20
-500.9983151263
 10
552.4024652136
 20
-498.1633608583
 10
548.827684702
 20
-495.0341928668
 10
545.4510595807
 20
-491.6166858377
 10
542.2789291105
 20
-487.9172557834
 10
539.317248635
 20
-483.9428479973
 10
536.5715783997
 20
-479.7009240146
 10
534.0470731136
 20
-475.1994476046
 10
531.7484722717
 20
-470.4468698186
 10
529.6800912568
 20
-465.4521131251
 10
527.8458132383
 20
-460.2245546577
 10
526.2490818813
 20
-454.7740086112
 10
524.8928948821
 20
-449.1107078165
 10
524.7605020818
 20
-448.4847348959
  0
LWPOLYLINE
  5
BF
330
1F
100
AcDbEntity
  8
0
  6
Continuous
 62
     7
370
    25
100
AcDbPolyline
 90
       82
 70
   128
 43
0.0
 10
714.6184470262
 20
-187.4946496617
 10
718.774661371
 20
-188.029602388
 10
723.2896123922
 20
-188.9283599523
 10
727.6617288286
 20
-190.143241064
 10
731.881948801
 20
-191.6717276967
 10
735.9415252593
 20
-193.5106518283
 10
739.8320441112
 20
-195.6562020077
 10
743.5454416623
 20
-198.1039312547
 10
747.0740213292
 20
-200.8487662764
 10
750.4104695916
 20
-203.8850179832
 10
753.547871151
 20
-207.2063932798
 10
756.4797232636
 20
-210.8060081086
 10
759.1999492182
 20
-214.6764017183
 10
761.702910931
 20
-218.809552127
 10
763.9834206318
 20
-223.1968927494
 10
766.0367516159
 20
-227.8293301521
 10
767.8586480413
 20
-232.6972629011
 10
769.4453337494
 20
-237.7906014624
 10
770.7935200918
 20
-243.0987891142
 10
771.9004127464
 20
-248.6108238268
 10
772.7637175092
 20
-254.3152810667
 10
773.3816450493
 20
-260.2003374751
 10
773.7529146173
 20
-266.2537953738
 10
773.8767567006
 20
-272.4631080471
 10
773.7529146173
 20
-278.8154057461
 10
773.3816450493
 20
-285.2975223639
 10
772.7637175092
 20
-291.8960227239
 10
771.9004127464
 20
-298.5972304265
 10
770.7935200918
 20
-305.3872561954
 10
769.4453337494
 20
-312.2520266653
 10
767.8586480412
 20
-319.1773135511
 10
766.0367516159
 20
-326.1487631382
 10
763.9834206318
 20
-333.1519260328
 10
761.702910931
 20
-340.1722871103
 10
759.1999492182
 20
-347.1952956004
 10
756.4797232636
 20
-354.2063952454
 10
753.547871151
 20
-361.1910544707
 10
750.4104695916
 20
-368.1347965036
 10
747.0740213292
 20
-375.0232293782
 10
743.5454416623
 20
-381.8420757655
 10
739.8320441112
 20
-388.5772025651
 10
735.9415252593
 20
-395.2146501982
 10
731.881948801
 20
-401.740661541
 10
727.6617288286
 20
-408.1417104385
 10
723.2896123922
 20
-414.4045297393
 10
718.774661371
 20
-420.516138794
 10
714.1262336903
 20
-426.4638703596
 10
709.3539639264
 20
-432.2353968542
 10
704.4677433371
 20
-437.8187559077
 10
699.4776993607
 20
-443.202375156
 10
694.3941746254
 20
-448.3750962259
 10
689.2277055125
 20
-453.3261978632
 10
683.9890003182
 20
-458.0454181537
 10
678.688917059
 20
-462.5229757926
 10
673.3384409668
 20
-466.749590358
 10
667.9486617203
 20
-470.7165015457
 10
662.5307504601
 20
-474.4154873267
 10
657.0959366346
 20
-477.8388809879
 10
651.6554847255
 20
-480.9795870232
 10
646.2206709
 20
-483.8310958398
 10
640.8027596398
 20
-486.3874972503
 10
635.4129803933
 20
-488.6434927222
 10
630.0625043011
 20
-490.5944063605
 10
624.7624210419
 20
-492.2361945988
 10
619.5237158476
 20
-493.5654545801
 10
614.3572467347
 20
-494.5794312103
 10
609.2737219994
 20
-495.2760228679
 10
604.283678023
 20
-495.6537857603
 10
599.3974574337
 20
-495.7119369163
 10
594.6251876698
 20
-495.4503558087
 10
589.9767599891
 20
-494.8695846042
 10
585.4618089679
 20
-493.9708270399
 10
581.0896925315
 20
-492.7559459281
 10
576.8694725591
 20
-491.2274592955
 10
572.8098961008
 20
-489.3885351639
 10
568.9193772489
 20
-487.2429849844
 10
565.2059796978
 20
-484.7952557375
 10
561.6774000309
 20
-482.0504207158
 10
558.3409517685
 20
-479.014169009
 10
555.2035502091
 20
-475.6927937124
 10
552.2716980965
 20
-472.0931788836
 10
551.1803060381
 20
-470.608489722
  0
ENDSEC
  0
SECTION
  2
OBJECTS
  0
DICTIONARY
  5
C
330
0
100
AcDbDictionary
281
     1
  3
ACAD_GROUP
350
D
  3
ACAD_LAYOUT
350
1A
  3
ACAD_MLINESTYLE
350
17
  3
ACAD_PLOTSETTINGS
350
19
  3
ACAD_PLOTSTYLENAME
350
E
  3
ACAD_SCALELIST
350
47
  0
DICTIONARY
  5
D
102
{ACAD_REACTORS
330
C
102
}
330
C
100
AcDbDictionary
281
     1
  0
DICTIONARY
  5
1A
102
{ACAD_REACTORS
330
C
102
}
330
C
100
AcDbDictionary
281
     1
  3
Layout1
350
1E
  3
Layout2
350
26
  3
Model
350
22
  0
DICTIONARY
  5
17
102
{ACAD_REACTORS
330
C
102
}
330
C
100
AcDbDictionary
281
     1
  3
Standard
350
18
  0
DICTIONARY
  5
19
102
{ACAD_REACTORS
330
C
102
}
330
C
100
AcDbDictionary
281
     1
  0
ACDBDICTIONARYWDFLT
  5
E
102
{ACAD_REACTORS
330
C
102
}
330
C
100
AcDbDictionary
281
     1
  3
Normal
350
F
100
AcDbDictionaryWithDefault
340
F
  0
DICTIONARY
  5
47
102
{ACAD_REACTORS
330
C
102
}
330
C
100
AcDbDictionary
281
     1
  3
A0
350
48
  3
A1
350
49
  3
A2
350
4A
  3
A3
350
4B
  3
A4
350
4C
  3
A5
350
4D
  3
A6
350
4E
  3
A7
350
4F
  3
A8
350
50
  3
A9
350
51
  3
B0
350
52
  3
B1
350
53
  3
B2
350
54
  3
B3
350
55
  3
B4
350
56
  3
B5
350
57
  3
B6
350
58
  3
B7
350
59
  3
B8
350
5A
  3
B9
350
5B
  3
C0
350
5C
  3
C1
350
5D
  3
C2
350
5E
  3
C3
350
5F
  3
C4
350
60
  3
C5
350
61
  3
C6
350
62
  3
C7
350
63
  3
C8
350
64
  3
C9
350
65
  3
D0
350
66
  3
D1
350
67
  3
D2
350
68
  0
LAYOUT
  5
1E
102
{ACAD_REACTORS
330
1A
102
}
330
1A
100
AcDbPlotSettings
  1

  2
none_device
  4

  6

 40
0.0
 41
0.0
 42
0.0
 43
0.0
 44
0.0
 45
0.0
 46
0.0
 47
0.0
 48
0.0
 49
0.0
140
0.0
141
0.0
142
1.0
143
1.0
 70
   688
 72
     1
 73
     0
 74
     5
  7

 75
    16
147
1.0
148
0.0
149
0.0
100
AcDbLayout
  1
Layout1
 70
     1
 71
     1
 10
0.0
 20
0.0
 11
420.0
 21
297.0
 12
0.0
 22
0.0
 32
0.0
 14
1.0000000000E+20
 24
1.0000000000E+20
 34
1.0000000000E+20
 15
-1.0000000000E+20
 25
-1.0000000000E+20
 35
-1.0000000000E+20
146
0.0
 13
0.0
 23
0.0
 33
0.0
 16
1.0
 26
0.0
 36
0.0
 17
0.0
 27
1.0
 37
0.0
 76
     0
330
1B
  0
LAYOUT
  5
26
102
{ACAD_REACTORS
330
1A
102
}
330
1A
100
AcDbPlotSettings
  1

  2
none_device
  4

  6

 40
0.0
 41
0.0
 42
0.0
 43
0.0
 44
0.0
 45
0.0
 46
0.0
 47
0.0
 48
0.0
 49
0.0
140
0.0
141
0.0
142
1.0
143
1.0
 70
   688
 72
     1
 73
     0
 74
     5
  7

 75
    16
147
1.0
148
0.0
149
0.0
100
AcDbLayout
  1
Layout2
 70
     1
 71
     2
 10
0.0
 20
0.0
 11
0.0
 21
0.0
 12
0.0
 22
0.0
 32
0.0
 14
0.0
 24
0.0
 34
0.0
 15
0.0
 25
0.0
 35
0.0
146
0.0
 13
0.0
 23
0.0
 33
0.0
 16
1.0
 26
0.0
 36
0.0
 17
0.0
 27
1.0
 37
0.0
 76
     0
330
23
  0
LAYOUT
  5
22
102
{ACAD_REACTORS
330
1A
102
}
330
1A
100
AcDbPlotSettings
  1

  2
none_device
  4
Letter_(8.50_x_11.00_Inches)
  6

 40
6.35
 41
6.35
 42
6.35000508
 43
6.35000508
 44
215.9
 45
279.4
 46
0.0
 47
0.0
 48
0.0
 49
0.0
140
0.0
141
0.0
142
1.0
143
1.0
 70
  1712
 72
     1
 73
     0
 74
     0
  7

 75
     0
147
1.0
148
0.0
149
0.0
100
AcDbLayout
  1
Model
 70
     1
 71
     0
 10
0.0
 20
0.0
 11
279.4
 21
215.9
 12
0.0
 22
0.0
 32
0.0
 14
0.0
 24
0.0
 34
0.0
 15
279.4
 25
215.9
 35
0.0
146
0.0
 13
0.0
 23
0.0
 33
0.0
 16
1.0
 26
0.0
 36
0.0
 17
0.0
 27
1.0
 37
0.0
 76
     0
330
1F
331
29
  0
MLINESTYLE
  5
18
102
{ACAD_REACTORS
330
17
102
}
330
17
100
AcDbMlineStyle
  2
Standard
 70
     0
  3

 62
   256
 51
90.0
 52
90.0
 71
     2
 49
0.5
 62
   256
  6
BYLAYER
 49
-0.5
 62
   256
  6
BYLAYER
  0
ACDBPLACEHOLDER
  5
F
102
{ACAD_REACTORS
330
E
102
}
330
E
  0
SCALE
  5
48
102
{ACAD_REACTORS
330
47
102
}
330
47
100
AcDbScale
 70
     0
300
1:1
140
1.0
141
1.0
290
     1
  0
SCALE
  5
49
102
{ACAD_REACTORS
330
47
102
}
330
47
100
AcDbScale
 70
     0
300
1:2
140
1.0
141
2.0
290
     0
  0
SCALE
  5
4A
102
{ACAD_REACTORS
330
47
102
}
330
47
100
AcDbScale
 70
     0
300
1:4
140
1.0
141
4.0
290
     0
  0
SCALE
  5
4B
102
{ACAD_REACTORS
330
47
102
}
330
47
100
AcDbScale
 70
     0
300
1:5
140
1.0
141
5.0
290
     0
  0
SCALE
  5
4C
102
{ACAD_REACTORS
330
47
102
}
330
47
100
AcDbScale
 70
     0
300
1:8
140
1.0
141
8.0
290
     0
  0
SCALE
  5
4D
102
{ACAD_REACTORS
330
47
102
}
330
47
100
AcDbScale
 70
     0
300
1:10
140
1.0
141
10.0
290
     0
  0
SCALE
  5
4E
102
{ACAD_REACTORS
330
47
102
}
330
47
100
AcDbScale
 70
     0
300
1:16
140
1.0
141
16.0
290
     0
  0
SCALE
  5
4F
102
{ACAD_REACTORS
330
47
102
}
330
47
100
AcDbScale
 70
     0
300
1:20
140
1.0
141
20.0
290
     0
  0
SCALE
  5
50
102
{ACAD_REACTORS
330
47
102
}
330
47
100
AcDbScale
 70
     0
300
1:30
140
1.0
141
30.0
290
     0
  0
SCALE
  5
51
102
{ACAD_REACTORS
330
47
102
}
330
47
100
AcDbScale
 70
     0
300
1:40
140
1.0
141
40.0
290
     0
  0
SCALE
  5
52
102
{ACAD_REACTORS
330
47
102
}
330
47
100
AcDbScale
 70
     0
300
1:50
140
1.0
141
50.0
290
     0
  0
SCALE
  5
53
102
{ACAD_REACTORS
330
47
102
}
330
47
100
AcDbScale
 70
     0
300
1:100
140
1.0
141
100.0
290
     0
  0
SCALE
  5
54
102
{ACAD_REACTORS
330
47
102
}
330
47
100
AcDbScale
 70
     0
300
2:1
140
2.0
141
1.0
290
     0
  0
SCALE
  5
55
102
{ACAD_REACTORS
330
47
102
}
330
47
100
AcDbScale
 70
     0
300
4:1
140
4.0
141
1.0
290
     0
  0
SCALE
  5
56
102
{ACAD_REACTORS
330
47
102
}
330
47
100
AcDbScale
 70
     0
300
8:1
140
8.0
141
1.0
290
     0
  0
SCALE
  5
57
102
{ACAD_REACTORS
330
47
102
}
330
47
100
AcDbScale
 70
     0
300
10:1
140
10.0
141
1.0
290
     0
  0
SCALE
  5
58
102
{ACAD_REACTORS
330
47
102
}
330
47
100
AcDbScale
 70
     0
300
100:1
140
100.0
141
1.0
290
     0
  0
SCALE
  5
59
102
{ACAD_REACTORS
330
47
102
}
330
47
100
AcDbScale
 70
     0
300
1/128" = 1'-0"
140
0.0078125
141
12.0
290
     0
  0
SCALE
  5
5A
102
{ACAD_REACTORS
330
47
102
}
330
47
100
AcDbScale
 70
     0
300
1/64" = 1'-0"
140
0.015625
141
12.0
290
     0
  0
SCALE
  5
5B
102
{ACAD_REACTORS
330
47
102
}
330
47
100
AcDbScale
 70
     0
300
1/32" = 1'-0"
140
0.03125
141
12.0
290
     0
  0
SCALE
  5
5C
102
{ACAD_REACTORS
330
47
102
}
330
47
100
AcDbScale
 70
     0
300
1/16" = 1'-0"
140
0.0625
141
12.0
290
     0
  0
SCALE
  5
5D
102
{ACAD_REACTORS
330
47
102
}
330
47
100
AcDbScale
 70
     0
300
3/32" = 1'-0"
140
0.09375
141
12.0
290
     0
  0
SCALE
  5
5E
102
{ACAD_REACTORS
330
47
102
}
330
47
100
AcDbScale
 70
     0
300
1/8" = 1'-0"
140
0.125
141
12.0
290
     0
  0
SCALE
  5
5F
102
{ACAD_REACTORS
330
47
102
}
330
47
100
AcDbScale
 70
     0
300
3/16" = 1'-0"
140
0.1875
141
12.0
290
     0
  0
SCALE
  5
60
102
{ACAD_REACTORS
330
47
102
}
330
47
100
AcDbScale
 70
     0
300
1/4" = 1'-0"
140
0.25
141
12.0
290
     0
  0
SCALE
  5
61
102
{ACAD_REACTORS
330
47
102
}
330
47
100
AcDbScale
 70
     0
300
3/8" = 1'-0"
140
0.375
141
12.0
290
     0
  0
SCALE
  5
62
102
{ACAD_REACTORS
330
47
102
}
330
47
100
AcDbScale
 70
     0
300
1/2" = 1'-0"
140
0.5
141
12.0
290
     0
  0
SCALE
  5
63
102
{ACAD_REACTORS
330
47
102
}
330
47
100
AcDbScale
 70
     0
300
3/4" = 1'-0"
140
0.75
141
12.0
290
     0
  0
SCALE
  5
64
102
{ACAD_REACTORS
330
47
102
}
330
47
100
AcDbScale
 70
     0
300
1" = 1'-0"
140
1.0
141
12.0
290
     0
  0
SCALE
  5
65
102
{ACAD_REACTORS
330
47
102
}
330
47
100
AcDbScale
 70
     0
300
1-1/2" = 1'-0"
140
1.5
141
12.0
290
     0
  0
SCALE
  5
66
102
{ACAD_REACTORS
330
47
102
}
330
47
100
AcDbScale
 70
     0
300
3" = 1'-0"
140
3.0
141
12.0
290
     0
  0
SCALE
  5
67
102
{ACAD_REACTORS
330
47
102
}
330
47
100
AcDbScale
 70
     0
300
6" = 1'-0"
140
6.0
141
12.0
290
     0
  0
SCALE
  5
68
102
{ACAD_REACTORS
330
47
102
}
330
47
100
AcDbScale
 70
     0
300
1'-0" = 1'-0"
140
12.0
141
12.0
290
     0
  0
ENDSEC
  0
EOF
